Sign in to follow this  
Followers 0
Iva

Tabbers needed...

219 posts in this topic

I finally decided to put tabs on this website.

If any of you musicians wants to help with this, please apply in this thread. I need people who know how to tab.

:wub:/>

1 person likes this

Share this post


Link to post
Share on other sites

I am assuming you want people to work out the songs and tab them out. If so shall we send them to you or put them in this thread. I shall help the best I can

Share this post


Link to post
Share on other sites

I'll help the best I can too.

And I'll help inform you if tabs are innacurate also. Alot of the tabs on the JFTab site are completely innacurate.

Share this post


Link to post
Share on other sites

I'll try and help too, but I'm not too good at it (yet :)/>)

Share this post


Link to post
Share on other sites

ill give it a try, just post what songs youd like. also does anyone have a good program for typing them out? instead of doing lines of --- ?

Share this post


Link to post
Share on other sites

Thanks to all 4 of you. And, to answer the question, I guess it would be best to post them here, so other people could see them before I put them online. I will credit everyone for the tabs, as I always do with everything people send me for the site.

And Kane, Jurjen, Jay...does any of you know how to help inrime?

By the way, inrime, welcome to the board :lol:/>

Share this post


Link to post
Share on other sites

thanks, im glad to be here.. your sites great, so itd be nice to help a bit. any idea of which songs you were looking for supersonic?

Share this post


Link to post
Share on other sites

heres most of warlocks tabbed out, since its the only new song i couldnt find on the net already tabbed out. the funky bit is a bit odd, thats as close as i could bother. some of the quieter guitar parts, like the lead in the first chorus i didnt do. and the first solo doesnt necessarily have the same amount of times a note is hit, eg - the E note starting off the solo, im lazy sorry :lol:/> hope this helps a bit anyway, and feel free to correct..oh and its key of Em if you feel like some improv

Verse

--------------

--------------

--7---9--(9)--

---------------

----------------

----------------

Chorus

x12 x12 x12 x2 x2

-12---8----5-----3--------

-12---8----5-----3---7----

-12---9----5-----4---7----

-14---10---7-----5---7----

-----------------------5--

-------------------------

Funky Bit (add slides?)

---------7--7------8-----

---------8--7-----10----

--------------------------

--------------------------

-7-7---------------------

--------------------------

Verse

Chorus

Verse

Bridge

C-Bm C-Bm-Em (C at 8th fret, Bm at 7th fret and Em at 12th fret)

Solo

---------------------------12^--12^-12^-12^-12-12-----12--10~12~10-10-------

------------------------------------------------------------------------------------------

-7~9-9--9--9-9--7~9-------------------------------------------------------------------

-------------------------------------------------------------------------------------------

-------------------------------------------------------------------------------------------

-------------------------------------------------------------------------------------------

-7~10~7--------------------------------------------------------------------------------

------------10--8~10~8-8--7~8~7---------------------------------------------------

---------------------------------------9---------------------------------7---7---7-9-9^-

------------------------------------------9--7-9----------------------9---9---9-----

---------------------------------------------------------5---5~7-7---------------------

-----------------------------------------------------~7---7-----------------------------

Verse

Chorus

Solo

-------------------------------------------10---------10^-7------------------------------

-----------------------10^-8-10----10^----10--------------10^-8-10-8----------8~10

---7-9-9^-7--7~9---------------------------------------------------------9---7~9------

-9-----------------------------------------------------------------------------------------

--------------------------------------------------------------------------------------------

--------------------------------------------------------------------------------------------

-----------10-------------10^---------15^-15^--12-------

-8----10^---10R--10---------10---------------------------

-------------------------------------------------------------

--------------------------------------------------------------

--------------------------------------------------------------

--------------------------------------------------------------

[code=auto:0]

Share this post


Link to post
Share on other sites

ah, very nice, thats exactly it :lol:/> do you know if it translates well when you post them online?

Share this post


Link to post
Share on other sites

thanks, im glad to be here.. your sites great, so itd be nice to help a bit.  any idea of which songs you were looking for supersonic?

Thanks for the compliments :lol:/>

Well, everything John did in RHCP and solo is fine with me. Album versions of songs first of course, so I can actually put something there.

Anyway, do I put the tabs in .txt files or...?

Share this post


Link to post
Share on other sites

Inrime (sorry I don't know your name) they work fine on here, just copy and paste them into the reply box and they usually come out fine.

Share this post


Link to post
Share on other sites

Here is all of Stadium Arcadium

Intro and verse riff

e|---------------------------------------------------------------------------|

B|---------------------------------------------------------2------------2---|

G|------------------2-------------2-------------------2------------2--------|

D|-------------4-------------4-------------------2-------------2-------------|

A|--------4--------------4--------------------0-----------------------------|

E|---2------------------------------------------------------------------------|

e|----------------------------------------------0------0-----------------------|

B|--------------------------------------------- 2------0-----------------------|

G|---------------2------------2--------------- 2------1-----------------------|

D|-----------4-----------4-------------------- 2------2-----------------------|

A|-------4-----------4-------------------------0------2-----------------------|

E|---2-------------------------------------------------0-----------------------|

Little variation in the verse

e|----------------------------

B|-----2h3--2---------------

G|---------------2------------

D|----------------------------

A|----------------------------

E|----------------------------

Chorus Chords (Strum these chords in the places shown with the lyrics)

Bm

Stadium Arcadium a

D

mirror to the moon and I'm

A

forming and I'm warming

E

state of the art until the clouds come crashing

Bm

Stranger things have happened both

D

before and after noon and I'm

A

forming and I'm warming

E

pushing myself and no I don't mind asking now

Solo

e|---------------------------------------------------------------------------|

B|---------------------------------------------------------------------------|

G|----11--9--------9^-------------------9---------------------------------|

D|-------------11------------------11---------9/7-----9^-----------------|

A|---------------------------------------------------------------------------|

E|---------------------------------------------------------------------------|

e|---------------------------------------------------------------------------|

B|----------------9---------------------------------------------------------|

G|----------11-------------------------------------9---11-----------------|

D|--9/11----------------9p7--9p7~------9/11--------------9^-----------|

A|---------------------------------------------------------------------------|

E|---------------------------------------------------------------------------|

e|---------------------------------------------------------------------------|

B|----------10---9---------9^-----------12^^----10--9---9h10---------|

G|----11--------------11---------11--------------------------------11-----|

D|---------------------------------------------------------------------------|

A|---------------------------------------------------------------------------|

E|---------------------------------------------------------------------------|

e|---------------------------------------------------------------------------|

B|---------------------------------------------------------------------------|

G|--9^-----------9^-------------9-----------------------------------------|

D|---------11--------------9^-------9---7-----9^--------------------------|

A|---------------------------------------------------------------------------|

E|---------------------------------------------------------------------------|

(pick rake)

e|--------9-----11----9-----------------------------------------------------|

B|-----~-------------------12---10-----------------------------------------|

G|-- ~---------------------------------11^----9---11~~-------------------

D|-~------------------------------------------------------------------------|

A|---------------------------------------------------------------------------|

E|---------------------------------------------------------------------------|

(pick rake)

e|-----------9----7-----------------------------------------------------------|

B|-------~------------10---9----9^^--------------------------------------|

G|----~----------------------------------11~~-----------------------------|

D|-~------------------------------------------------------------------------|

A|---------------------------------------------------------------------------|

E|---------------------------------------------------------------------------|

Repeat verse and chorus once more

Share this post


Link to post
Share on other sites

I did quite a few tabs for IOE and Sphere that are up on the 4th dimension and frusicante.net. You can use those if you'd like.

Share this post


Link to post
Share on other sites

Wet Sand

Intro

e|---3-3-3-3-3------------2--2--2--2------------0-0-0-0-----------------|

B|---0-0-0-0-0------------3--3- 3--3------------0-0-0-0-----------------|

G|---0-0-0-0-0--------2--2--2--2--2------------0-0-0-0-----------------|

D|---0-0-0-0-0--------0--------------------------2-2-2-2-----------------|

A|---2-------------------------------------0h2----2-2-2-2-----------------|

E|---3------------------------------------------3---------------------------|

e|--------------2--2--2---------------------------------------------------------|

B|--------------3--3--3---------------------------------------------------------|

G|--------------4--4--4---------------------------------------------------------|

D|--------------4--4--4---------------------------------------------------------|

A|--5^---2----------------2---5---2-------------------------------------------|

E|---------------------------------------5---3----------------------------------|

Verse (the variations in between the chords change so I usually improvise parts of them)

e|---3-3-3-3-3---------------------2--2--2--2--------------------------------|

B|---0-0-0-0-0---------------------3--3- 3--3--------------------------------|

G|---0-0-0-0-0------------------2- 2--2--2------------------------ ----------|

D|---0-0-0-0-0---2h0-----------0-----------------2h0------------------------|

A|---2-------------------2h0-----------------------------2h0------------------|

E|---3---------------------------------------------------------------------------|

e|--0--0--0--0----------------2--2--2----------------------------------------|

B|--0--0--0--0----------------3--3--3----------------------------------------|

G|- 0--0--0--0----------------4--4--4----------------------------------------|

D|- 2--2--2--2----------------4--4--4----------------------------------------|

A|--2--2--2--2-----5^--2----------------------2--3--5-----------------------|

E|------------------------------------------3--5---------------------------------|

e|---3-3-3-3-3---------------------2--2--2--2--------------------------------|

B|---0-0-0-0-0---------------------3--3- 3--3--------------------------------|

G|---0-0-0-0-0------------------2- 2--2--2------------------------ ----------|

D|---0-0-0-0-0------------------0---------------------------------------------|

A|---2--------------2-3--5---------------------------2--3--5------------------|

E|---3------------5--------------------------------5----------------------------|

e|--0--0--0--0----------------2--2--2----------------------------------------|

B|--0--0--0--0----------------3--3--3----------------------------------------|

G|- 0--0--0--0----------------4--4--4----------------------------------------|

D|- 2--2--2--2----------------4--4--4----------------------------------------|

A|--2--2--2--2-----5^--2--------------------2--5--2-----------------------------|

E|---------------------------------------------------------3--5-------------------|

(^ Repeat again)

Chorus Chords (strum to these)

Em

My what a good day for

D

a walk

C

outside

Em

I'd like to think we did it for the better of

D

(Repeat verse and chorus)

(Strum to these chords for the bridge part)

E

I thought about it and I

C

brought it

E

out. I'm motivated by the

C

lack of

E

doubt

E

I'm consecrated but I'm

C

not

E

devout. The mother the father the daughter

(Repeat verse, chorus and bridge one more)

E

You don't

F#

form in the

Abmin

wet sand

E

You don't

F#

form at all

Abmin

E

You don't

F#

form in the

Abmin

wet sand

E

I do.

For the above part one of layers of guitar includes John playing an arpeggio of these chords, it goes like this:

e|---0---------0-----0------2---------2-------2--------4-------4-----4----4-----4--------|

B|- ---0--------0------0-------2--------2--------2--------4------4----4-----4-----4------|

G|- -----1---------1---------------3----- 3------------------4-----4---4------4------4---|

D|- -----------------------------------------------------------------------------------------|

A|- -----------------------------------------------------------------------------------------|

E|-------------------------------------------------------------------------------------------|

Outro Solo

(really bend those first notes)

e|----14^--14^--14^--14^---19--14^---19--14^---14^---14~---14^^---------|

B|--------------------------------------------------------------------------------------|

G|--------------------------------------------------------------------------------------|

D|--------------------------------------------------------------------------------------|

A|--------------------------------------------------------------------------------------|

E|--------------------------------------------------------------------------------------|

e|---------------------------------------------------------------11-------------------|

B|---16~~------14h16p14----12^^----12--12---11h12-----------12~-------------|

G|-------------------------------------------------------------------------------------|

D|--------------------------------------------------------------------------------------|

A|--------------------------------------------------------------------------------------|

E|-------------------------------------------------------------------------------------|

e|----16^---14h16~~----------21^--21^---21^---21^--21^---21--21^----21--

B|--------------------------------------------------------------------------------------|

G|----------------------------------------------------------------------------------------|

D|--------------------------------------------------------------------------------------|

A|---------------------------------------------------------------------------------------|

E|----------------------------------------------------------------------------------------|

e|---19--21---21^---19h21p19-----19---18---19---21---21^---19~~-|

B|---------------------------------------------------------------------------|

G|---------------------------------------------------------------------------|

D|---------------------------------------------------------------------------|

A|---------------------------------------------------------------------------|

E|---------------------------------------------------------------------------|

e|-----19---19--19--19--19~~-------18h19p18----16~~---16-16--16-|

B|---------------------------------------------------------------------------|

G|---------------------------------------------------------------------------|

D|---------------------------------------------------------------------------|

A|---------------------------------------------------------------------------|

E|---------------------------------------------------------------------------|

e|---14--------16^--16~---14--16---14----------------------------------|

B|---------16--------------------------------17~---------------------------|

G|---------------------------------------------------------------------------|

D|---------------------------------------------------------------------------|

A|---------------------------------------------------------------------------|

E|---------------------------------------------------------------------------|

Share this post


Link to post
Share on other sites

Turn It Again, I tabbed this the best I could.

Intro

Maje sure you mute and play all the strings that are not being sounded in this riff for a funkier, spikier effect)

(Palm mute the first two strums in each phrase)

e|------------10/13---------------------------------------10/13----------------------|

B|----11-11--------------11--x--11---x--x----11--11----------------11--x--11----|

G|----12-12--------------12--x--12---x--x----12--12----------------12--x--12----|

D|--------------------------------------------------------------------------------------|

A|--------------------------------------------------------------------------------------|

E|--------------------------------------------------------------------------------------|

e|---------------------10/13----------------------------------10/13--------------------|

B|---x--x--------------------------------------------------------------------------------|

G|-- x--x---10--10-----------10-x--10----x--x---10-10---------------10--x--10-------|

D|---------- 10--10-----------10-x--10----x--x---10-10---------------10--x--10-----|

A|----------------------------------------------------------------------------------------|-

E|----------------------------------------------------------------------------------------|

e|----------------8/10----------------------------8/10-------------------10/13----------|

B|------------------------------------------------------------------------------------------|

G|--x--x- 8--8---------8-x--8---x--x----8--8-----------x--x----8-8---------------------|

D|--x--x--8--8---------8-x--8---x--x----8--8-----------x--x----7-7---------------------|

A|-------------------------------------------------------------------------------------------|

E|------------------------------------------------------------------------------------------|

e|--------------------------------------------------------------------------------|

B|--11- x--11----x--x---11---11----8/7--7--8/7-- 7--8----------------------------|

G|--12- x--12----x--x---12---12----7----7--7-----7-- 7---------------------------|

D|-------------------------------------------------------------------------------|

A|-------------------------------------------------------------------------------|

E|--------------------------------------------------------------------------------|

Verse

e|------------10/13---------------------------------10/13---------------------------------|

B|----11-11--------------11--x--11---x--x----11--11----------------11--x--11---------|

G|----12-12--------------12--x--12---x--x----12--12----------------12--x--12---------|

D|-------------------------------------------------------------------------------------------|

A|-------------------------------------------------------------------------------------------|

E|-------------------------------------------------------------------------------------------|

e|---------------------10/13----------------------------------10/13--------------------|

B|---x--x--------------------------------------------------------------------------------|

G|-- x--x---10--10-----------10-x--10----x--x---10-10---------------10--x--10-------|

D|---------- 10--10-----------10-x--10----x--x---10-10---------------10--x--10-----|

A|----------------------------------------------------------------------------------------|-

E|----------------------------------------------------------------------------------------|

e|----------------8/10----------------------------8/10-------------------10/13----------|

B|------------------------------------------------------------------------------------------|

G|--x--x- 8--8---------8-x--8---x--x----8--8-----------x--x----11-11-----------------|

D|--x--x--8--8---------8-x--8---x--x----8--8-----------x--x----12-12-----------------|

A|-------------------------------------------------------------------------------------------|

E|------------------------------------------------------------------------------------------|

e|--------------------------------------------------10p8---8---10-------------------|

B|--11- x--11----x--x---11---11----8/7--7--8---8------8---8---------------------|

G|--12- x--12----x--x---12---12----7----7--7------- ------------------------------|

D|-------------------------------------------------------------------------------------|

A|-------------------------------------------------------------------------------------|

E|-------------------------------------------------------------------------------------|

(Look out for the variations at the end of each verse)

Chorus

All my friends...

e|---------------------------------------------------------------------------|

B|-----------------------------13p11--13^^----13p11-------------------|

G|---10h12----12----x--x--------------------------------12--------------|

D|---------------------------------------------------------------------------|

A|---------------------------------------------------------------------------|

E|---------------------------------------------------------------------------|

e|---------------------------------------------------------------------------|

B|-----------------------------13p11--13^^----13p11-------------------|

G|---10h12----12----x--x--------------------------------12--------------|

D|---------------------------------------------------------------------------|

A|---------------------------------------------------------------------------|

E|---------------------------------------------------------------------------|

e|---------------------------------------------------------------------------|

B|-----------------------------13p11--13^^----13p11-------------------|

G|---10h12----12----x--x--------------------------------12--------------|

D|---------------------------------------------------------------------------|

A|---------------------------------------------------------------------------|

E|---------------------------------------------------------------------------|

e|---------------------------------------------------------------------------|

B|-----------------------------13p11--13^^----13p11-------------------|

G|---10h12----12----x--x--------------------------------12--------------|

D|---------------------------------------------------------------------------|

A|---------------------------------------------------------------------------|

E|---------------------------------------------------------------------------|

I turn to you I turn into...

e|---------------------------------------------------------------------------|

B|---------------------------------------------------------------------------|

G|---10h12--12--12--12--12--12-12p10----------------------------------

D|----------------------------------------------12---11---8---------------|

A|---------------------------------------------------------------------------|

E|---------------------------------------------------------------------------|

e|---------------------------------------------------------------------------|

B|---------------------------------------------------------------------------|

G|---10h12--12--12--12--12--12-12p10----------------------------------

D|----------------------------------------------12---11---9---------------|

A|---------------------------------------------------------------------------|

E|---------------------------------------------------------------------------|

e|---------------------------------------------------------------------------|

B|---------------------------------------------------------------------------|

G|----10h12--12--12-12--12---10----------------------------------------|

D|-------------------------------------12-11-9-----------------------------|

A|--------------------------------------------------12--10-------------------|

E|---------------------------------------------------------------------------|

e|-------------------------------------------------------------------------------------|

B|-------------------------------------------------------------------------------------|

G|---10-------------------------10----------------------10--------------------------|

D|--------12-11-9------------------12-11-9----------------12-11-9----------------|

A|--------------------12-10---------------------12-10-----------------12--10-------|

E|--------------------------------------------------------------------------------------|

Here we go...

e|---------------------------------------------------------------------------|

B|-----------------------------13p11--13^^----13p11-------------------|

G|---10h12----12----x--x--------------------------------12--------------|

D|---------------------------------------------------------------------------|

A|---------------------------------------------------------------------------|

E|---------------------------------------------------------------------------|

e|---------------------------------------------------------------------------|

B|-----------------------------13p11--13^^----13p11-------------------|

G|---10h12----12----x--x--------------------------------12--------------|

D|---------------------------------------------------------------------------|

A|---------------------------------------------------------------------------|

E|---------------------------------------------------------------------------|

e|---------------------------------------------------------------------------|

B|-----------------------------13p11--13^^----13p11-------------------|

G|---10h12----12----x--x--------------------------------12--------------|

D|---------------------------------------------------------------------------|

A|---------------------------------------------------------------------------|

E|---------------------------------------------------------------------------|

e|------------------------------------13^^---------------------------------|

B|--------------------------13p11---13^^----13p11----------------------|

G|---10h12--12--x--x-----------------------------------12----------------|

D|--------------------------------------------------------------------------|

A|---------------------------------------------------------------------------|

E|---------------------------------------------------------------------------|

e|------------------------------------13^^---------------------------------|

B|--------------------------13p11---13^^----13p11----------------------|

G|---10h12--12--x--x-----------------------------------12----------------|

D|--------------------------------------------------------------------------|

A|---------------------------------------------------------------------------|

E|---------------------------------------------------------------------------|

e|----------------------------------------------------------------------------------|

B|-----------------11----------------------------11-------------------------------|

G|---10h12-12---------12-10-------------------------12--10-------------------|

D|---------------------------------12--11-8---------------------12--11--9------|

A|---------------------------------------------------------------------------------|

E|---------------------------------------------------------------------------------|

e|-----------------------------------------------------------------------------|

B|----11--------------------------------11----------------------------------|

G|----------12---10-------------------------12---10-----------------------|

D|-----------------------12--11-9-----------------------12-11--9---------|

A|---------------------------------------------------------------------------|

E|---------------------------------------------------------------------------|

For second verse repeat main riff

Second Chorus

All my friends...

e|---------------------------------------------------------------------------|

B|-----------------------------13p11--13^^----13p11-------------------|

G|---10h12----12----x--x--------------------------------12--------------|

D|---------------------------------------------------------------------------|

A|---------------------------------------------------------------------------|

E|---------------------------------------------------------------------------|

e|---------------------------------------------------------------------------|

B|-----------------------------13p11--13^^----13p11-------------------|

G|---10h12----12----x--x--------------------------------12--------------|

D|---------------------------------------------------------------------------|

A|---------------------------------------------------------------------------|

E|---------------------------------------------------------------------------|

e|---------------------------------------------------------------------------|

B|-----------------------------13p11--13^^----13p11-------------------|

G|---10h12----12----x--x--------------------------------12--------------|

D|---------------------------------------------------------------------------|

A|---------------------------------------------------------------------------|

E|---------------------------------------------------------------------------|

e|---------------------------------------------------------------------------|

B|-----------------------------13p11--13^^----13p11-------------------|

G|---10h12----12----x--x--------------------------------12--------------|

D|---------------------------------------------------------------------------|

A|---------------------------------------------------------------------------|

E|---------------------------------------------------------------------------|

I turn to you I turn into...

e|---------------------------------------------------------------------------|

B|---------------------------------------------------------------------------|

G|---10h12--12--12--12--12--12-12p10----------------------------------

D|----------------------------------------------12---11---8---------------|

A|---------------------------------------------------------------------------|

E|---------------------------------------------------------------------------|

e|---------------------------------------------------------------------------|

B|---------------------------------------------------------------------------|

G|---10h12--12--12--12--12--12-12p10----------------------------------

D|----------------------------------------------12---11---9---------------|

A|---------------------------------------------------------------------------|

E|---------------------------------------------------------------------------|

e|---------------------------------------------------------------------------|

B|---------------------------------------------------------------------------|

G|----10h12--12--12-12--12---10----------------------------------------|

D|-------------------------------------12-11-9-----------------------------|

A|--------------------------------------------------12--10-------------------|

E|---------------------------------------------------------------------------|

e|-------------------------------------------------------------------------------------|

B|-------------------------------------------------------------------------------------|

G|---10-------------------------10----------------------10--------------------------|

D|--------12-11-9------------------12-11-9----------------12-11-9----------------|

A|--------------------12-10---------------------12-10-----------------12--10-------|

E|--------------------------------------------------------------------------------------|

Here we go...

e|---------------------------------------------------------------------------|

B|-----------------------------13p11--13^^----13p11-------------------|

G|---10h12----12----x--x--------------------------------12--------------|

D|---------------------------------------------------------------------------|

A|---------------------------------------------------------------------------|

E|---------------------------------------------------------------------------|

e|---------------------------------------------------------------------------|

B|-----------------------------13p11--13^^----13p11-------------------|

G|---10h12----12----x--x--------------------------------12--------------|

D|---------------------------------------------------------------------------|

A|---------------------------------------------------------------------------|

E|---------------------------------------------------------------------------|

e|---------------------------------------------------------------------------|

B|-----------------------------13p11--13^^----13p11-------------------|

G|---10h12----12----x--x--------------------------------12--------------|

D|---------------------------------------------------------------------------|

A|---------------------------------------------------------------------------|

E|---------------------------------------------------------------------------|

e|------------------------------------13^^---------------------------------|

B|--------------------------13p11---13^^----13p11----------------------|

G|---10h12--12--x--x-----------------------------------12----------------|

D|--------------------------------------------------------------------------|

A|---------------------------------------------------------------------------|

E|---------------------------------------------------------------------------|

e|------------------------------------13^^---------------------------------|

B|--------------------------13p11---13^^----13p11----------------------|

G|---10h12--12--x--x-----------------------------------12----------------|

D|--------------------------------------------------------------------------|

A|---------------------------------------------------------------------------|

E|---------------------------------------------------------------------------|

e|-------------------------------------------------------------------------------------|

B|---------------------------11------13--------11-------13--------11-------13-----|

G|--10h12--12--12--12--------12-------12-------12--------12--------12---------|

D|------------------------------------------------------------------------------------|

A|------------------------------------------------------------------------------------|

E|------------------------------------------------------------------------------------|

e|---------------------------------------------------------------------------|

B|---------11--------11/----------------------------------------------------|

G|---12--------12---12/----------------------------------------------------|

D|---------------------------------------------------------------------------|

A|---------------------------------------------------------------------------|

E|---------------------------------------------------------------------------|

Here there is a part without guitars, although when the third verse comes in go back to the main riff. The last chorus plays the same as the second chorus.

For the end solo I would improvise as there are about three guitars layered on top of one another. Most of the phrases evolve around the chorus parts...such as:

e|---------------------------------------------------------------------------|

B|-----------------------------13p11--13^^----13p11-------------------|

G|---10h12----12----x--x--------------------------------12--------------|

D|---------------------------------------------------------------------------|

A|---------------------------------------------------------------------------|

E|---------------------------------------------------------------------------|

^This phrase pops up at the start and towards the end of the solo

When a third or fourth guitar is added there is a phrase included that sounds a bit like this:

e|------13h15-15--15---17p15--17^^--17p15--13--13h15--15-------

B|---------------------------------------------------------------------------|

G|---------------------------------------------------------------------------|

D|---------------------------------------------------------------------------|

A|---------------------------------------------------------------------------|

E|---------------------------------------------------------------------------|

I don't have the ability to worked this all out note for note..just play around with those main chorus notes and the above phrases and have fun!

Share this post


Link to post
Share on other sites

Dani California.

Intro and verse

e|------------5------------------------3--------------------- 5----------------- -5------|

B|------------5----x--x---------------3-----x--x----------- 6----x--x--------- 5------|

G|------------5----x--x-------------- 4-----x--x----7--7---7----x--x--------- 5------|

D|----7--7---7----x--x-----5---5----5-----x--x----7--7---7----x--x---7--7--7-----|

A|----7--7------------------ 5---5-------------------5--5----------------7--7--------|

E|----5--5-------------------3---3----------------------------------------5--5--------|

There is a wah style effect part in the middle of the verse I think it goes something like this

e|------------------------------------------------------------------------ --|

B|---------------------------------------------------------------------------|

G|-------------5h7p5------5------4-x-4-----5h7p5--------5--------------|

D|---7-x-7-------------7----------5-x-5---------------7--------------------|

A|---7-x-7-------------------------------------------------------------------|

E|---------------------------------------------------------------------------|

e|---------------------------------------------------------------------------|

B|-------------6-5----------------------------------------------------------|

G|--7-x--7-----------7--5--7-----------------------------------------------|

D|--7-x--7------------------------------------------------------------------|

A|---------------------------------------------------------------------------|

E|---------------------------------------------------------------------------|

Chorus

e|----------------------------------------------------------------------------------|

B|----------------------------------------------------------------------------------|

G|------------------- -5--5--5--5---5/7---7--7-7--7--7-------------------------|

D|- 3--3- 3--3--3----5--5--5--5---5/7---7--7-7--7--7----- -5-- 5-------------|

A|- 3--3- 3--3--3----3--3--3--3---3/5---5--5-5--5--5----- -5-- 5-------------|

E|--1--1- 1--1--1--------------------------------------------- 3-- 3-------------|

e|----------------------------------------------------------------------------------|

B|----------------------------------------------------------------------------------|

G|------------------- -5--5--5--5---5/7---7--7-7--7--7-------------------------|

D|- 3--3- 3--3--3----5--5--5--5---5/7---7--7-7--7--7----- -5-- 5-------------|

A|- 3--3- 3--3--3----3--3--3--3---3/5---5--5-5--5--5----- -5-- 5-------------|

E|--1--1- 1--1--1--------------------------------------------- 3-- 3-------------|

e|----------------------------------------------------------------------------------|

B|----------------------------------------------------------------------------------|

G|------------------- -5--5--5--5---5/7---7--7-7--7--7-------------------------|

D|- 3--3- 3--3--3----5--5--5--5---5/7---7--7-7--7--7----- -5-- 5-------------|

A|- 3--3- 3--3--3----3--3--3--3---3/5---5--5-5--5--5----- -5-- 5-------------|

E|--1--1- 1--1--1--------------------------------------------- 3-- 3-------------|

e|----------------------------------------------------------------------------------|

B|----------------------------------------------------------------------------------|

G|------------------- -5--5--5--5---5/7---7--7-7----x--7-x--7--x--x--x-------|

D|- 3--3- 3--3--3----5--5--5--5---5/7---7--7-7----x--7-x--7--x--x--x---- ----|

A|- 3--3- 3--3--3----3--3--3--3---3/5---5--5-5----x--5-x -5--x--x--x---------|

E|--1--1- 1--1--1------------------------------------------------------------------|

e|---------------------------------------------------------------------------|

B|---------------------------------------------------------------------------|

G|-7-x-7--x-x-x--7--7----------------------------------------------------------------|

D|-7-x-7--x-x-x--7--7----------------------------------------------------------------|

A|-5-x-5--x-x-x--5--5----------------------------------------------------------------|

E|---------------------------------------------------------------------------|

Short solo with some kind of effect

e|-------------------------------------------------------------------15^^-----|

B|---------------------------------15^^---------------------------------------|

G|----14^^----12^^---17^^------------14^^--12^^---17^^------------|

D|-------------------------------------------------------------------------------|

A|--------------------------------------------------------------------------------|

E|--------------------------------------------------------------------------------|

(Repeat verse and chorus)

Play these chords four times round in the part where John sings after the second chorus

e|------------2------------3-------------2--2---2---------------------------------|

B|------------4------------3-------------2--2---2----------------------------------|

G|----2--2---2------------4------------ 2--2---2----------------------------------|

D|----2--2---2----5--5---5------4--4--4--4---4-----------------------------------|

A|----4--4---------5--5----------4--4----------------------------------------------|

E|------------------3- 3----------2--2--------------------------------------------|

Play through the last verse and strum this chord before the final chorus:

e|-- ---4--------------

B|--- --3--------------

G|------4--------------

D|-----------------

A|------------------

E|-------------------

Solo

e|---------------------------------------------------------------------------|

B|---------------------------------------------------------------------------|

G|------------------10------------------------------------------------------|

D|------------10--------12~-----------------------------------------------|

A|---10/12---------------------8h10p- 8h10p-8h10p-10p8p------------|

E|------------------------------------------------------------- 10--10----|

e|---------------------------------------------------------------------------|

B|---------------------------------------------------------------------------|

G|------------------------------------------------10------------------------|

D|-------------------------------------------10--------12-------------------|

A|---------------------^5~---------10/12----------------------------------|

E|---3---1--3---1------------------------------------------------------------|

e|---------------------------------------------------------------------------|

B|-----------------------------------------10h13------15^~---------------|

G|---------------------------------------------------------------------------|

D|--7h10p-7h10p-7h10p 10--12~----------------------------------------|

A|---------------------------------------------------------------------------|

E|---------------------------------------------------------------------------|

e|---------------------------------------------------------------------------|

B|---------------------------------------------------------------------------|

G|------------------10------------------------------------------------------|

D|------------10--------12~------------------------------------------------|

A|---10/12---------------------8h10p- 8h10p-8h10p-10p8p-----------|

E|------------------------------------------------------------- 10-10--------|

e|---------------------------------------------------------------------------|

B|---------------------------------------------------------------------------|

G|------------------------------------------------10------------------------|

D|-------------------------------------------10--------12-------------------|

A|---------------------^5~---------10/12----------------------------------|

E|---3---1--3---1------------------------------------------------------------|

e|---------------------------------------------------------------------------|

B|-----------------------------------------------10h13----- 15^~----------|

G|-------------------------------------------------------------------------- |

D|---12--7h10p-7h10p 7h10p---10--12~--------------------------------

A|-------------------------------------------------------------------------- |

E|------------------------------------------------------------------------ -|

e|----------------------------------------------------------------------------------|

B|---10h13----15p13-------15p13-------15p13-----15p13------15p13--------|

G|------------------------14----------14----------14----------14-----------14---|

D|----------------------------------------------------------------------------------|

A|----------------------------------------------------------------------------------|

E|----------------------------------------------------------------------------------|

e|---------------------------------------------------------------------------|

B|---------------------------------------------------------------------------|

G|------------------10------------------------------------------------------|

D|------------10--------12~-----------------------------------------------|

A|---10/12---------------------8h10p- 8h10p-8h10p-10p8p-------8-----|

E|----------------------------------------------------------------10-----|

e|---------------------------------------------------------------------------|

B|---------------------------------------------------------------------------|

G|----------------------------------------------10--------------------------

D|---------10-----------------------------10--------12-----------------------

A|----10---------10p8----------10/12----------------------------------------

E|-------------------------10---------------------------------------------------|

e|----------------------------------------------------------------------------|

B|-----------------------------------------------10h13----- 15^~----------|

G|-------------------------------------------------------------------------- |

D|---12--7h10p-7h10p 7h10p---10--12~--------------------------------|

A|-------------------------------------------------------------------------- |

E|-------------------------------------------------------------------------- -|

e|---------------------------------------------------------------------------|

B|---------------------------------------------------------------------------|

G|------------------10------------------------------------------------------|

D|------------10--------12~-----------------------------------------------|

A|---10/12---------------------8h10p- 8h10p-8h10p-10p8p------------|

E|------------------------------------------------------------- 10--10----|

e|---------------------------------------------------------------------------|

B|---------------------------------------------------------------------------|

G|---------------------------------------------------------------------------|

D|--------------------------------------------------------------------------|

A|---------------------^5~-------------------------------------------------|

E|---3---1--3---1------------------------------------------------------------|

I really don't know the wah part but after a glance at the video and after watching John do it live in various concert videos i have tabbed out the notes that I think push towards the real thing, although I can tell you now I dont think its totally correct

e|---------------------------------------------------------------------------|

B|---------------------------------------------------------------------------|

G|-14p10 10h12p10----------14p10-10h12p10--------------------------|

D|----------------------12---------------------------12---------------------|

A|---------------------------------------------------------------------------|

E|---------------------------------------------------------------------------|

e|---------------------------------------------------------------------------|

B|---------------------------------------------------------------------------|

G|-14p10 10h12p10----------14p10-10h12p10---------------------------|

D|----------------------12---------------------------12---------------------|

A|---------------------------------------------------------------------------|

E|---------------------------------------------------------------------------|

e|---------------------------------------------------------------------------|

B|---------------------------------------------------------------------------|

G|-14p10 10h12p10----------14p10-10h12p10--------------------------|

D|----------------------12---------------------------12--------------------|

A|---------------------------------------------------------------------------|

E|---------------------------------------------------------------------------|

e|---------------------------------------------------------------------------|

B|---------------------------------------------------------------------------|

G|-14p10 10h12p10----------14p10-10h12p10-------------------------|

D|----------------------12---------------------------12--------------------|

A|---------------------------------------------------------------------------|

E|---------------------------------------------------------------------------|

e|----12h15-15-15--15p10 -10h12p10-----15p10------10h12p10-----

B|---------------------------------------------------------------------------|

G|---------------------------------------------------------------------------|

D|---------------------------------------------------------------------------|

A|---------------------------------------------------------------------------|

E|---------------------------------------------------------------------------|

e|------15p10 -10h12p10-----15p10------10h12p10-------------------

B|---------------------------------------------------------------------------|

G|---------------------------------------------------------------------------|

D|---------------------------------------------------------------------------|

A|---------------------------------------------------------------------------|

E|---------------------------------------------------------------------------|

e|------15p10 -10h12p10-----15p10------10h12p10-------------------

B|---------------------------------------------------------------------------|

G|---------------------------------------------------------------------------|

D|---------------------------------------------------------------------------|

A|---------------------------------------------------------------------------|

E|---------------------------------------------------------------------------|

e|------15p10 -10h12p10-----15p10------10h12p10-------------------|

B|---------------------------------------------------------------------------|

G|---------------------------------------------------------------------------|

D|---------------------------------------------------------------------------|

A|---------------------------------------------------------------------------|

E|---------------------------------------------------------------------------|

e|------15p10 -10h12p10------15p12--------12--------------------------|

B|-----------------------------------------15--------15---12---15p12-----|

G|---------------------------------------------------------------------------|

D|---------------------------------------------------------------------------|

A|---------------------------------------------------------------------------|

E|---------------------------------------------------------------------------|

e|--------------------------------------------------------------------------|

B|---10--10h12p10--------------------------------------------------------|

G|----------------------12p10--12^p10-----------------------------------|

D|--------------------------------------------12~--------------------------|

A|---------------------------------------------------------------------------|

E|---------------------------------------------------------------------------|

Share this post


Link to post
Share on other sites

I did quite a few tabs for IOE and Sphere that are up on the 4th dimension and frusicante.net. You can use those if you'd like.

Could you send them to me instead? Webmasters of those two sites log my IP whenever I go there because they're errr...weird.

Share this post


Link to post
Share on other sites

And Kane, wow. That is impressive...I bet it takes long?

Share this post


Link to post
Share on other sites

I did quite a few tabs for IOE and Sphere that are up on the 4th dimension and frusicante.net. You can use those if you'd like.

<{POST_SNAPBACK}>

Could you send them to me instead? Webmasters of those two sites log my IP whenever I go there because they're errr...weird.

<{POST_SNAPBACK}>

Yeah sure thing, it'll just take me a while to do them all up.

Share this post


Link to post
Share on other sites

And Kane, wow. That is impressive...I bet it takes long?

<{POST_SNAPBACK}>

I nearly died after Turn it Again, lol. No a lot of it is copying and pasting repeated parts, doesn't take as long as you'd think.

Share this post


Link to post
Share on other sites

is there anything you're looking for most right now? like, would you rather have new chili pepper stuff now, or would you rather have some john stuff, or does it not matter?

Share this post


Link to post
Share on other sites

She Looks To Me.

Intro

e|----------------------------------9-------------9-------------------------|

B|---10----------10-------------------10------------------10--------------|

G|-------11-----------------11-------------11--------11-------------------|

D|-----------11-------11---------------------------------------------------|

A|---------------------------------------------------------------------------|

E|---------------------------------------------------------------------------|

e|----7---------7---------------14---------------14------------------------|

B|-------9------------- 9-------------12---------------------12-------------|

G|----------9------ 9------------------------13--------13------------------|

D|---------------------------------------------------------------------------|

A|---------------------------------------------------------------------------|

E|---------------------------------------------------------------------------|

e|----------------------------------9-------------9----------------- 7--------|

B|---10----------10-------------------10------------------10------9--------|

G|-------11-----------------11-------------11--------11-----------9--------|

D|-----------11-------11-----------------------------------------------------|

A|-----------------------------------------------------------------------------|

E|-----------------------------------------------------------------------------|

Verse

Play these chords to the rhythm and hold strum G into the chorus

e|--------------------------------------------------------------------------------|

B|----5--5--5- 5----5--5--5--5----3--3--3- 3-----1--1--1--1-----------------|

G|----5--5- 5- 5----5--5--5--5----4--4--4--4-----2--2--2--2-----------------|

D|--- 7--7--7--7----5--5--5--5----5--5--5--5-----3--3- 3--3-----------------|

A|--- 7--7--7--7----3--3--3--3----5--5--5--5-----3--3--3--3-----------------|

E|----5--5--5--5------------------- 3--3--3--3-----1--1--1--1-----------------|

Chorus

You should play these chords through four times leave the chorus on the E

e|------------------------9---9--- 9--9------7--7--7--7-----14-14-14-14------|

B|---10-10--10--10----10--10--10-10-----9--9--9--9-----12-12-12-12------|

G|---11-11--11--11----11--11--11-11-----9--9--9--9-----13-13-13 13------|

D|---11-11--11--11----11--11--11-11-----9--9--9--9-------------------------|

A|--- 9--9--- 9--- 9---------------------------------------------------------------|

E|------------------------------------------------------------------------------ --|

Play through verse and chorus again

During the second chorus you will hear a lead guitar in the background, these are the phrases.

e|---------------------14----------------------------------------------------|

B|---------------------14----------------------------------------------------|

G|----14h16--16^-----------16p14--16--16p14~~-----------------------|

D|---------------------------------------------------------------------------|

A|---------------------------------------------------------------------------|

E|---------------------------------------------------------------------------|

e|---------------------------------------------------------------------------|

B|---------------------------------------------------------------------------|

G|------------14--16--14------------14--16--14--------------------------|

D|---14-16------------------14--16---------------------------------------|

A|---------------------------------------------------------------------------|

E|---------------------------------------------------------------------------|

e|----14^--12--------------------------------------------------------------|

B|---------------------------------------------------------------------------|

G|-----------------16p14-14--16--16p14~~------------------------------|

D|---------------------------------------------------------------------------|

A|---------------------------------------------------------------------------|

E|---------------------------------------------------------------------------|

Bridge part after the second chorus

(Play the first three strums of each chord downwards making sure to palm mute the strings as you go.)

e|-----------------------------------------------------5- 5--5-----5-5-5----------|

B|---5---5--5----5-5-5-5----5--5--5---5-5-5-5----6--6--6-----6-6-6-6-6-----|

G|---5---7--7----7-7-7-7----5--5--5---5-5-5-5----5--5--5-----5-5-5-5-5-----|

D|---7---7--7----7-7-7-7----5--5--5-- 5-5-5-5----3--3--3-----3-3-3-3-3-----|

A|---7-- 7--7----7-7-7-7----3--3--3---3-3-3-3---------------------------------|

E|---5---5--5----5-5-5-5---------------------------------------------------------|

e|--5- 5--5-----5-5-5-------------------------------------------------------|

B|--6--6--6-----6-6-6-6-6--------------------------------------------------|

G|--5--5--5-----5-5-5-5-5-------------------------------------------------|

D|--3--3--3-----3-3-3-3-3-------------------------------------------------|

A|---------------------------------------------------------------------------|

E|---------------------------------------------------------------------------|

Solo

This is a strange solo as there is a lot of effects going on. You can replicate the sound with a lot of distortion and some very quick delay. Be sure to really bend the notes.

e|------------------------------------------------------------------17^---------|

B|--------------------------------------------15^-------------------------------|

G|---8^-----------------12^----------------------------------------------------|

D|--------------------------------------------------------------------------------|

A|--------------------------------------------------------------------------------|

E|--------------------------------------------------------------------------------|

Play through verse and final chorus

Here are the lead guitar phrases for the first part of the final chorus.

e|---14^-14^p12------14~~----------------------11-------------------------------|

B|-------------------14--------------------------------------------------------------|

G|------------------------------------14h16--16^----------16p14-16---14~~---|

D|-----------------------------------------------------------------------------------|

A|-----------------------------------------------------------------------------------|

E|-----------------------------------------------------------------------------------|

e|--------------------------------------------------------------------------|

B|----------------------14h17---------------------------------------------|

G|------------14--16-----------16---14~~-----------14^^--14~------|

D|--14--16----------------------------------------------------------------|

A|--------------------------------------------------------------------------|

E|--------------------------------------------------------------------------|

For the second part of the final chorus the key changes, here are the chords. You should play these 4 times through.

e|--7--7--7--7--------11-11-11-11-------------------------16-16-16--------------|

B|--9--9--9--9--------12-12-12-12----11--11-11-11------16-16-16-------------|

G|--8- 8--8--8--------11-11-11-11----11--11-11-11------16-16-16-------------|

D|--------------------- 9---9--9---9----11--11-11-11------------------------------|

A|----------------------------------------9----9--9--9-------------------------------|

E|-------------------------------------------------------------------------------------|

Here are the lead phrases in the second part of the final chorus

e|------------14--16---------------------------------------------------------|

B|---12h14------------14p12--14--12~~-----------14^----14~~--------|

G|---------------------------------------------------------------------------|

D|---------------------------------------------------------------------------|

A|---------------------------------------------------------------------------|

E|---------------------------------------------------------------------------|

e|-----------------------------------------------------------------------------------------|

B|---------------------------------------------------12^-12~~--------------------------|

G|-----14^--14-13~~----------11h13--------11------------------14^--14--13~~----|

D|---------------------------------------14-----------------------------------------------|

A|-----------------------------------------------------------------------------------------|

E|-----------------------------------------------------------------------------------------|

Play the chords the through another four times for the outro, on the fourth time finish on the F#

Share this post


Link to post
Share on other sites

good job Kane, you're great at tabbing.

I keep getting some started but get distracted. I'll get around to finishing them really soon hopefully. Kane, you might have to try and tab out some solos for me though. I'm working on Tell Me Baby right now and I don't know the solo.

Share this post


Link to post
Share on other sites

Create an account or sign in to comment

You need to be a member in order to leave a comment

Create an account

Sign up for a new account in our community. It's easy!


Register a new account

Sign in

Already have an account? Sign in here.


Sign In Now
Sign in to follow this  
Followers 0